ISO-10303-21;
HEADER;
FILE_DESCRIPTION (( 'STEP AP203' ),
    '1' );
FILE_NAME ('Q-OZHWP-R2-12.7-488-M.STEP',
    '2020-12-22T09:14:14',
    ( '' ),
    ( '' ),
    'SwSTEP 2.0',
    'SolidWorks 2020',
    '' );
FILE_SCHEMA (( 'CONFIG_CONTROL_DESIGN' ));
ENDSEC;

DATA;
#1 = CARTESIAN_POINT ( 'NONE',  ( -2.999999999999999556, 0.000000000000000000, 6.349999999999999645 ) ) ;
#2 = AXIS2_PLACEMENT_3D ( 'NONE', #234, #231, #207 ) ;
#3 = CARTESIAN_POINT ( 'NONE',  ( 1.500000000000000888, 7.776507174585692163E-16, -6.349999999999999645 ) ) ;
#4 = DIRECTION ( 'NONE',  ( 0.000000000000000000, 0.000000000000000000, 1.000000000000000000 ) ) ;
#5 = DIRECTION ( 'NONE',  ( 1.000000000000000000, 0.000000000000000000, 0.000000000000000000 ) ) ;
#6 = PERSON_AND_ORGANIZATION ( #301, #158 ) ;
#7 = ORIENTED_EDGE ( 'NONE', *, *, #35, .T. ) ;
#8 = CIRCLE ( 'NONE', #185, 6.349999999999999645 ) ;
#9 = AXIS2_PLACEMENT_3D ( 'NONE', #111, #5, #29 ) ;
#10 = ORIENTED_EDGE ( 'NONE', *, *, #184, .T. ) ;
#11 = PERSON_AND_ORGANIZATION ( #301, #158 ) ;
#12 =( NAMED_UNIT ( * ) PLANE_ANGLE_UNIT ( ) SI_UNIT ( $, .RADIAN. ) );
#13 = EDGE_LOOP ( 'NONE', ( #293, #200 ) ) ;
#14 = ORIENTED_EDGE ( 'NONE', *, *, #114, .T. ) ;
#15 = CIRCLE ( 'NONE', #206, 6.349999999999999645 ) ;
#16 = LOCAL_TIME ( 17, 14, 14.00000000000000000, #274 ) ;
#17 = EDGE_LOOP ( 'NONE', ( #273, #298 ) ) ;
#18 = EDGE_CURVE ( 'NONE', #222, #322, #64, .T. ) ;
#19 = CARTESIAN_POINT ( 'NONE',  ( 3.000000000000000000, 0.000000000000000000, 0.000000000000000000 ) ) ;
#20 = CIRCLE ( 'NONE', #306, 12.69999999999999929 ) ;
#21 =( GEOMETRIC_REPRESENTATION_CONTEXT ( 3 ) GLOBAL_UNCERTAINTY_ASSIGNED_CONTEXT ( ( #237 ) ) GLOBAL_UNIT_ASSIGNED_CONTEXT ( ( #192, #12, #164 ) ) REPRESENTATION_CONTEXT ( 'NONE', 'WORKASPACE' ) );
#22 = CC_DESIGN_SECURITY_CLASSIFICATION ( #194, ( #314 ) ) ;
#23 = DIRECTION ( 'NONE',  ( -1.000000000000000000, -0.000000000000000000, -0.000000000000000000 ) ) ;
#24 = CARTESIAN_POINT ( 'NONE',  ( 3.000000000000000888, 7.776507174585692163E-16, -6.349999999999999645 ) ) ;
#25 = CARTESIAN_POINT ( 'NONE',  ( -3.000000000000000000, 0.000000000000000000, 12.69999999999999929 ) ) ;
#26 = CARTESIAN_POINT ( 'NONE',  ( -1.500000000000000444, 6.349999999999999645, 0.000000000000000000 ) ) ;
#27 = APPROVAL_PERSON_ORGANIZATION ( #6, #74, #171 ) ;
#28 = EDGE_CURVE ( 'NONE', #254, #59, #205, .T. ) ;
#29 = DIRECTION ( 'NONE',  ( 0.000000000000000000, 0.000000000000000000, -1.000000000000000000 ) ) ;
#30 = FACE_OUTER_BOUND ( 'NONE', #121, .T. ) ;
#31 = DIRECTION ( 'NONE',  ( -1.000000000000000000, -0.000000000000000000, -0.000000000000000000 ) ) ;
#32 = VECTOR ( 'NONE', #33, 1000.000000000000000 ) ;
#33 = DIRECTION ( 'NONE',  ( -1.000000000000000000, -0.000000000000000000, -0.000000000000000000 ) ) ;
#34 = VERTEX_POINT ( 'NONE', #179 ) ;
#35 = EDGE_CURVE ( 'NONE', #322, #59, #20, .T. ) ;
#36 = APPROVAL_ROLE ( '' ) ;
#37 = CC_DESIGN_PERSON_AND_ORGANIZATION_ASSIGNMENT ( #269, #327, ( #314 ) ) ;
#38 = ORIENTED_EDGE ( 'NONE', *, *, #58, .T. ) ;
#39 = PERSON_AND_ORGANIZATION ( #301, #158 ) ;
#40 = VERTEX_POINT ( 'NONE', #24 ) ;
#41 = ORIENTED_EDGE ( 'NONE', *, *, #244, .F. ) ;
#42 = DATE_AND_TIME ( #67, #253 ) ;
#43 = APPROVAL_PERSON_ORGANIZATION ( #39, #97, #36 ) ;
#44 = PERSON_AND_ORGANIZATION_ROLE ( 'design_supplier' ) ;
#45 = DIRECTION ( 'NONE',  ( 1.000000000000000000, 0.000000000000000000, 0.000000000000000000 ) ) ;
#46 = EDGE_CURVE ( 'NONE', #295, #248, #332, .T. ) ;
#47 = CARTESIAN_POINT ( 'NONE',  ( 1.500000000000000888, 0.000000000000000000, 0.000000000000000000 ) ) ;
#48 = AXIS2_PLACEMENT_3D ( 'NONE', #182, #216, #86 ) ;
#49 = DIRECTION ( 'NONE',  ( 0.000000000000000000, 0.000000000000000000, 1.000000000000000000 ) ) ;
#50 = CARTESIAN_POINT ( 'NONE',  ( -1.614212418857619014, 0.000000000000000000, 0.000000000000000000 ) ) ;
#51 = PRODUCT_DEFINITION ( 'UNKNOWN', '', #314, #291 ) ;
#52 = DIRECTION ( 'NONE',  ( 0.000000000000000000, 0.000000000000000000, 1.000000000000000000 ) ) ;
#53 = DIRECTION ( 'NONE',  ( -1.000000000000000000, -0.000000000000000000, -0.000000000000000000 ) ) ;
#54 = CLOSED_SHELL ( 'NONE', ( #100, #109, #256, #172, #190, #309, #290, #331, #85, #300 ) ) ;
#55 = CARTESIAN_POINT ( 'NONE',  ( -1.614212418857619014, 7.776507174585692163E-16, -6.349999999999999645 ) ) ;
#56 = LOCAL_TIME ( 17, 14, 14.00000000000000000, #163 ) ;
#57 = CARTESIAN_POINT ( 'NONE',  ( -1.614212418857619014, 0.000000000000000000, 0.000000000000000000 ) ) ;
#58 = EDGE_CURVE ( 'NONE', #218, #62, #15, .T. ) ;
#59 = VERTEX_POINT ( 'NONE', #25 ) ;
#60 = DATE_AND_TIME ( #325, #270 ) ;
#61 = VECTOR ( 'NONE', #257, 1000.000000000000000 ) ;
#62 = VERTEX_POINT ( 'NONE', #333 ) ;
#63 = MECHANICAL_CONTEXT ( 'NONE', #118, 'mechanical' ) ;
#64 = LINE ( 'NONE', #101, #105 ) ;
#65 = APPROVAL_STATUS ( 'not_yet_approved' ) ;
#66 = EDGE_LOOP ( 'NONE', ( #197, #162 ) ) ;
#67 = CALENDAR_DATE ( 2020, 22, 12 ) ;
#68 = PERSON_AND_ORGANIZATION_ROLE ( 'creator' ) ;
#69 = ORIENTED_EDGE ( 'NONE', *, *, #83, .F. ) ;
#70 = AXIS2_PLACEMENT_3D ( 'NONE', #26, #84, #134 ) ;
#71 = CYLINDRICAL_SURFACE ( 'NONE', #285, 12.69999999999999929 ) ;
#72 = EDGE_CURVE ( 'NONE', #59, #322, #202, .T. ) ;
#73 = CARTESIAN_POINT ( 'NONE',  ( 3.000000000000000000, 12.69999999999999929, 0.000000000000000000 ) ) ;
#74 = APPROVAL ( #65, 'UNSPECIFIED' ) ;
#75 = CARTESIAN_POINT ( 'NONE',  ( -2.999999999999999556, 0.000000000000000000, 0.000000000000000000 ) ) ;
#76 = AXIS2_PLACEMENT_3D ( 'NONE', #152, #131, #188 ) ;
#77 = FACE_OUTER_BOUND ( 'NONE', #271, .T. ) ;
#78 = DIRECTION ( 'NONE',  ( -1.000000000000000000, -0.000000000000000000, -0.000000000000000000 ) ) ;
#79 = CARTESIAN_POINT ( 'NONE',  ( 3.000000000000000000, 0.000000000000000000, 12.69999999999999929 ) ) ;
#80 = AXIS2_PLACEMENT_3D ( 'NONE', #103, #107, #127 ) ;
#81 = DIRECTION ( 'NONE',  ( 0.000000000000000000, 0.000000000000000000, 1.000000000000000000 ) ) ;
#82 = AXIS2_PLACEMENT_3D ( 'NONE', #335, #311, #156 ) ;
#83 = EDGE_CURVE ( 'NONE', #173, #124, #110, .T. ) ;
#84 = DIRECTION ( 'NONE',  ( 1.000000000000000000, 0.000000000000000000, 0.000000000000000000 ) ) ;
#85 = ADVANCED_FACE ( 'NONE', ( #181, #303 ), #305, .F. ) ;
#86 = DIRECTION ( 'NONE',  ( 0.000000000000000000, 0.000000000000000000, 1.000000000000000000 ) ) ;
#87 = CC_DESIGN_APPROVAL ( #97, ( #314 ) ) ;
#88 = DIRECTION ( 'NONE',  ( 1.000000000000000000, 0.000000000000000000, 0.000000000000000000 ) ) ;
#89 = ORIENTED_EDGE ( 'NONE', *, *, #119, .T. ) ;
#90 = CALENDAR_DATE ( 2020, 22, 12 ) ;
#91 = CYLINDRICAL_SURFACE ( 'NONE', #165, 12.69999999999999929 ) ;
#92 = EDGE_LOOP ( 'NONE', ( #10, #94, #268, #120 ) ) ;
#93 = PERSON_AND_ORGANIZATION ( #301, #158 ) ;
#94 = ORIENTED_EDGE ( 'NONE', *, *, #18, .T. ) ;
#95 = AXIS2_PLACEMENT_3D ( 'NONE', #112, #212, #81 ) ;
#96 = ORIENTED_EDGE ( 'NONE', *, *, #238, .F. ) ;
#97 = APPROVAL ( #219, 'UNSPECIFIED' ) ;
#98 = DATE_AND_TIME ( #252, #16 ) ;
#99 = ORIENTED_EDGE ( 'NONE', *, *, #318, .F. ) ;
#100 = ADVANCED_FACE ( 'NONE', ( #129 ), #71, .T. ) ;
#101 = CARTESIAN_POINT ( 'NONE',  ( -1.614212418857619014, 1.555301434917138433E-15, -12.69999999999999929 ) ) ;
#102 = DIRECTION ( 'NONE',  ( 0.000000000000000000, 0.000000000000000000, -1.000000000000000000 ) ) ;
#103 = CARTESIAN_POINT ( 'NONE',  ( 1.500000000000000888, 0.000000000000000000, 0.000000000000000000 ) ) ;
#104 = CARTESIAN_POINT ( 'NONE',  ( -1.614212418857619014, 0.000000000000000000, 12.69999999999999929 ) ) ;
#105 = VECTOR ( 'NONE', #310, 1000.000000000000000 ) ;
#106 = CC_DESIGN_APPROVAL ( #126, ( #194 ) ) ;
#107 = DIRECTION ( 'NONE',  ( -1.000000000000000000, -0.000000000000000000, -0.000000000000000000 ) ) ;
#108 = CYLINDRICAL_SURFACE ( 'NONE', #213, 6.349999999999999645 ) ;
#109 = ADVANCED_FACE ( 'NONE', ( #77 ), #176, .F. ) ;
#110 = CIRCLE ( 'NONE', #2, 6.349999999999999645 ) ;
#111 = CARTESIAN_POINT ( 'NONE',  ( -3.000000000000000000, 6.349999999999999645, 0.000000000000000000 ) ) ;
#112 = CARTESIAN_POINT ( 'NONE',  ( 3.000000000000000888, 0.000000000000000000, 0.000000000000000000 ) ) ;
#113 = CYLINDRICAL_SURFACE ( 'NONE', #76, 6.349999999999999645 ) ;
#114 = EDGE_CURVE ( 'NONE', #222, #254, #136, .T. ) ;
#115 = ORIENTED_EDGE ( 'NONE', *, *, #58, .F. ) ;
#116 = EDGE_LOOP ( 'NONE', ( #146, #135, #195, #166 ) ) ;
#117 = SHAPE_DEFINITION_REPRESENTATION ( #275, #143 ) ;
#118 = APPLICATION_CONTEXT ( 'configuration controlled 3d designs of mechanical parts and assemblies' ) ;
#119 = EDGE_CURVE ( 'NONE', #124, #173, #153, .T. ) ;
#120 = ORIENTED_EDGE ( 'NONE', *, *, #28, .F. ) ;
#121 = EDGE_LOOP ( 'NONE', ( #221, #191, #141, #41 ) ) ;
#122 = CC_DESIGN_PERSON_AND_ORGANIZATION_ASSIGNMENT ( #93, #198, ( #194 ) ) ;
#123 = AXIS2_PLACEMENT_3D ( 'NONE', #168, #161, #88 ) ;
#124 = VERTEX_POINT ( 'NONE', #304 ) ;
#125 = CARTESIAN_POINT ( 'NONE',  ( -1.500000000000000444, 0.000000000000000000, 0.000000000000000000 ) ) ;
#126 = APPROVAL ( #142, 'UNSPECIFIED' ) ;
#127 = DIRECTION ( 'NONE',  ( 0.000000000000000000, 0.000000000000000000, 1.000000000000000000 ) ) ;
#128 = DIRECTION ( 'NONE',  ( -1.000000000000000000, -0.000000000000000000, -0.000000000000000000 ) ) ;
#129 = FACE_OUTER_BOUND ( 'NONE', #92, .T. ) ;
#130 = DIRECTION ( 'NONE',  ( 0.000000000000000000, 0.000000000000000000, 1.000000000000000000 ) ) ;
#131 = DIRECTION ( 'NONE',  ( -1.000000000000000000, -0.000000000000000000, -0.000000000000000000 ) ) ;
#132 = CYLINDRICAL_SURFACE ( 'NONE', #186, 6.349999999999999645 ) ;
#133 = CARTESIAN_POINT ( 'NONE',  ( -1.500000000000000444, 0.000000000000000000, 6.349999999999999645 ) ) ;
#134 = DIRECTION ( 'NONE',  ( 0.000000000000000000, 0.000000000000000000, -1.000000000000000000 ) ) ;
#135 = ORIENTED_EDGE ( 'NONE', *, *, #233, .F. ) ;
#136 = CIRCLE ( 'NONE', #329, 12.69999999999999929 ) ;
#137 = AXIS2_PLACEMENT_3D ( 'NONE', #125, #45, #102 ) ;
#138 = AXIS2_PLACEMENT_3D ( 'NONE', #264, #31, #4 ) ;
#139 = ORIENTED_EDGE ( 'NONE', *, *, #83, .T. ) ;
#140 = CALENDAR_DATE ( 2020, 22, 12 ) ;
#141 = ORIENTED_EDGE ( 'NONE', *, *, #151, .T. ) ;
#142 = APPROVAL_STATUS ( 'not_yet_approved' ) ;
#143 = ADVANCED_BREP_SHAPE_REPRESENTATION ( 'Q-OZHWP-R2-12.7-488-M', ( #211, #123 ), #21 ) ;
#144 = ORIENTED_EDGE ( 'NONE', *, *, #119, .F. ) ;
#145 = PRODUCT ( 'Q-OZHWP-R2-12.7-488-M', 'Q-OZHWP-R2-12.7-488-M', '', ( #63 ) ) ;
#146 = ORIENTED_EDGE ( 'NONE', *, *, #246, .F. ) ;
#147 = DIRECTION ( 'NONE',  ( 0.000000000000000000, 0.000000000000000000, 1.000000000000000000 ) ) ;
#148 = DIRECTION ( 'NONE',  ( -1.000000000000000000, -0.000000000000000000, -0.000000000000000000 ) ) ;
#149 = CC_DESIGN_APPROVAL ( #74, ( #51 ) ) ;
#150 = LINE ( 'NONE', #312, #232 ) ;
#151 = EDGE_CURVE ( 'NONE', #248, #295, #8, .T. ) ;
#152 = CARTESIAN_POINT ( 'NONE',  ( -1.614212418857619014, 0.000000000000000000, 0.000000000000000000 ) ) ;
#153 = CIRCLE ( 'NONE', #137, 6.349999999999999645 ) ;
#154 = FACE_BOUND ( 'NONE', #276, .T. ) ;
#155 = CC_DESIGN_DATE_AND_TIME_ASSIGNMENT ( #60, #226, ( #51 ) ) ;
#156 = DIRECTION ( 'NONE',  ( -0.000000000000000000, 0.000000000000000000, 1.000000000000000000 ) ) ;
#157 = FACE_OUTER_BOUND ( 'NONE', #66, .T. ) ;
#158 = ORGANIZATION ( 'UNSPECIFIED', 'UNSPECIFIED', '' ) ;
#159 = FACE_OUTER_BOUND ( 'NONE', #169, .T. ) ;
#160 = CC_DESIGN_PERSON_AND_ORGANIZATION_ASSIGNMENT ( #272, #224, ( #145 ) ) ;
#161 = DIRECTION ( 'NONE',  ( 0.000000000000000000, 0.000000000000000000, 1.000000000000000000 ) ) ;
#162 = ORIENTED_EDGE ( 'NONE', *, *, #151, .F. ) ;
#163 = COORDINATED_UNIVERSAL_TIME_OFFSET ( 8, 0, .AHEAD. ) ;
#164 =( NAMED_UNIT ( * ) SI_UNIT ( $, .STERADIAN. ) SOLID_ANGLE_UNIT ( ) );
#165 = AXIS2_PLACEMENT_3D ( 'NONE', #57, #196, #250 ) ;
#166 = ORIENTED_EDGE ( 'NONE', *, *, #46, .T. ) ;
#167 = EDGE_CURVE ( 'NONE', #124, #62, #150, .T. ) ;
#168 = CARTESIAN_POINT ( 'NONE',  ( 0.000000000000000000, 0.000000000000000000, 0.000000000000000000 ) ) ;
#169 = EDGE_LOOP ( 'NONE', ( #228, #7 ) ) ;
#170 = PERSON_AND_ORGANIZATION ( #301, #158 ) ;
#171 = APPROVAL_ROLE ( '' ) ;
#172 = ADVANCED_FACE ( 'NONE', ( #157 ), #286, .F. ) ;
#173 = VERTEX_POINT ( 'NONE', #133 ) ;
#174 = APPROVAL_DATE_TIME ( #42, #126 ) ;
#175 = AXIS2_PLACEMENT_3D ( 'NONE', #73, #283, #281 ) ;
#176 = CYLINDRICAL_SURFACE ( 'NONE', #217, 6.349999999999999645 ) ;
#177 = CIRCLE ( 'NONE', #48, 12.69999999999999929 ) ;
#178 = COORDINATED_UNIVERSAL_TIME_OFFSET ( 8, 0, .AHEAD. ) ;
#179 = CARTESIAN_POINT ( 'NONE',  ( 3.000000000000000888, 0.000000000000000000, 6.349999999999999645 ) ) ;
#180 = CARTESIAN_POINT ( 'NONE',  ( -3.000000000000000000, 0.000000000000000000, 0.000000000000000000 ) ) ;
#181 = FACE_OUTER_BOUND ( 'NONE', #17, .T. ) ;
#182 = CARTESIAN_POINT ( 'NONE',  ( 3.000000000000000000, 0.000000000000000000, 0.000000000000000000 ) ) ;
#183 = CARTESIAN_POINT ( 'NONE',  ( -1.614212418857619014, 0.000000000000000000, 0.000000000000000000 ) ) ;
#184 = EDGE_CURVE ( 'NONE', #254, #222, #177, .T. ) ;
#185 = AXIS2_PLACEMENT_3D ( 'NONE', #47, #23, #49 ) ;
#186 = AXIS2_PLACEMENT_3D ( 'NONE', #183, #241, #52 ) ;
#187 = CARTESIAN_POINT ( 'NONE',  ( 3.000000000000000000, 1.555301434917138433E-15, -12.69999999999999929 ) ) ;
#188 = DIRECTION ( 'NONE',  ( 0.000000000000000000, 0.000000000000000000, 1.000000000000000000 ) ) ;
#189 = FACE_OUTER_BOUND ( 'NONE', #116, .T. ) ;
#190 = ADVANCED_FACE ( 'NONE', ( #189 ), #108, .F. ) ;
#191 = ORIENTED_EDGE ( 'NONE', *, *, #246, .T. ) ;
#192 =( LENGTH_UNIT ( ) NAMED_UNIT ( * ) SI_UNIT ( .MILLI., .METRE. ) );
#193 = ORIENTED_EDGE ( 'NONE', *, *, #35, .F. ) ;
#194 = SECURITY_CLASSIFICATION ( '', '', #201 ) ;
#195 = ORIENTED_EDGE ( 'NONE', *, *, #244, .T. ) ;
#196 = DIRECTION ( 'NONE',  ( -1.000000000000000000, -0.000000000000000000, -0.000000000000000000 ) ) ;
#197 = ORIENTED_EDGE ( 'NONE', *, *, #46, .F. ) ;
#198 = PERSON_AND_ORGANIZATION_ROLE ( 'classification_officer' ) ;
#199 = APPROVAL_DATE_TIME ( #98, #74 ) ;
#200 = ORIENTED_EDGE ( 'NONE', *, *, #220, .T. ) ;
#201 = SECURITY_CLASSIFICATION_LEVEL ( 'unclassified' ) ;
#202 = CIRCLE ( 'NONE', #235, 12.69999999999999929 ) ;
#203 = CARTESIAN_POINT ( 'NONE',  ( -3.000000000000000000, 0.000000000000000000, 0.000000000000000000 ) ) ;
#204 = DIRECTION ( 'NONE',  ( -1.000000000000000000, -0.000000000000000000, -0.000000000000000000 ) ) ;
#205 = LINE ( 'NONE', #104, #61 ) ;
#206 = AXIS2_PLACEMENT_3D ( 'NONE', #75, #148, #230 ) ;
#207 = DIRECTION ( 'NONE',  ( 0.000000000000000000, 0.000000000000000000, -1.000000000000000000 ) ) ;
#208 = APPROVAL_PERSON_ORGANIZATION ( #11, #126, #223 ) ;
#209 = CC_DESIGN_DATE_AND_TIME_ASSIGNMENT ( #292, #249, ( #194 ) ) ;
#210 = CARTESIAN_POINT ( 'NONE',  ( -1.614212418857619014, 0.000000000000000000, 6.349999999999999645 ) ) ;
#211 = MANIFOLD_SOLID_BREP ( 'Ðý×', #54 ) ;
#212 = DIRECTION ( 'NONE',  ( -1.000000000000000000, -0.000000000000000000, -0.000000000000000000 ) ) ;
#213 = AXIS2_PLACEMENT_3D ( 'NONE', #50, #240, #288 ) ;
#214 = CARTESIAN_POINT ( 'NONE',  ( 1.500000000000000888, 0.000000000000000000, 6.349999999999999645 ) ) ;
#215 = CARTESIAN_POINT ( 'NONE',  ( -3.000000000000000000, 1.555301434917138433E-15, -12.69999999999999929 ) ) ;
#216 = DIRECTION ( 'NONE',  ( -1.000000000000000000, -0.000000000000000000, -0.000000000000000000 ) ) ;
#217 = AXIS2_PLACEMENT_3D ( 'NONE', #280, #204, #255 ) ;
#218 = VERTEX_POINT ( 'NONE', #1 ) ;
#219 = APPROVAL_STATUS ( 'not_yet_approved' ) ;
#220 = EDGE_CURVE ( 'NONE', #40, #34, #282, .T. ) ;
#221 = ORIENTED_EDGE ( 'NONE', *, *, #220, .F. ) ;
#222 = VERTEX_POINT ( 'NONE', #187 ) ;
#223 = APPROVAL_ROLE ( '' ) ;
#224 = PERSON_AND_ORGANIZATION_ROLE ( 'design_owner' ) ;
#225 = ORIENTED_EDGE ( 'NONE', *, *, #318, .T. ) ;
#226 = DATE_TIME_ROLE ( 'creation_date' ) ;
#227 = COORDINATED_UNIVERSAL_TIME_OFFSET ( 8, 0, .AHEAD. ) ;
#228 = ORIENTED_EDGE ( 'NONE', *, *, #72, .T. ) ;
#229 = DATE_AND_TIME ( #90, #56 ) ;
#230 = DIRECTION ( 'NONE',  ( 0.000000000000000000, 0.000000000000000000, 1.000000000000000000 ) ) ;
#231 = DIRECTION ( 'NONE',  ( 1.000000000000000000, 0.000000000000000000, 0.000000000000000000 ) ) ;
#232 = VECTOR ( 'NONE', #239, 1000.000000000000000 ) ;
#233 = EDGE_CURVE ( 'NONE', #34, #40, #242, .T. ) ;
#234 = CARTESIAN_POINT ( 'NONE',  ( -1.500000000000000444, 0.000000000000000000, 0.000000000000000000 ) ) ;
#235 = AXIS2_PLACEMENT_3D ( 'NONE', #203, #128, #258 ) ;
#236 = CARTESIAN_POINT ( 'NONE',  ( -1.614212418857619014, 0.000000000000000000, 0.000000000000000000 ) ) ;
#237 = UNCERTAINTY_MEASURE_WITH_UNIT (LENGTH_MEASURE( 1.000000000000000082E-05 ), #192, 'distance_accuracy_value', 'NONE');
#238 = EDGE_CURVE ( 'NONE', #173, #218, #243, .T. ) ;
#239 = DIRECTION ( 'NONE',  ( -1.000000000000000000, -0.000000000000000000, -0.000000000000000000 ) ) ;
#240 = DIRECTION ( 'NONE',  ( -1.000000000000000000, -0.000000000000000000, -0.000000000000000000 ) ) ;
#241 = DIRECTION ( 'NONE',  ( -1.000000000000000000, -0.000000000000000000, -0.000000000000000000 ) ) ;
#242 = CIRCLE ( 'NONE', #294, 6.349999999999999645 ) ;
#243 = LINE ( 'NONE', #287, #308 ) ;
#244 = EDGE_CURVE ( 'NONE', #34, #295, #289, .T. ) ;
#245 = FACE_OUTER_BOUND ( 'NONE', #326, .T. ) ;
#246 = EDGE_CURVE ( 'NONE', #40, #248, #263, .T. ) ;
#247 = ORIENTED_EDGE ( 'NONE', *, *, #28, .T. ) ;
#248 = VERTEX_POINT ( 'NONE', #3 ) ;
#249 = DATE_TIME_ROLE ( 'classification_date' ) ;
#250 = DIRECTION ( 'NONE',  ( 0.000000000000000000, 0.000000000000000000, 1.000000000000000000 ) ) ;
#251 = ORIENTED_EDGE ( 'NONE', *, *, #167, .F. ) ;
#252 = CALENDAR_DATE ( 2020, 22, 12 ) ;
#253 = LOCAL_TIME ( 17, 14, 14.00000000000000000, #279 ) ;
#254 = VERTEX_POINT ( 'NONE', #79 ) ;
#255 = DIRECTION ( 'NONE',  ( 0.000000000000000000, 0.000000000000000000, 1.000000000000000000 ) ) ;
#256 = ADVANCED_FACE ( 'NONE', ( #30 ), #132, .F. ) ;
#257 = DIRECTION ( 'NONE',  ( -1.000000000000000000, -0.000000000000000000, -0.000000000000000000 ) ) ;
#258 = DIRECTION ( 'NONE',  ( 0.000000000000000000, 0.000000000000000000, 1.000000000000000000 ) ) ;
#259 = DIRECTION ( 'NONE',  ( -1.000000000000000000, -0.000000000000000000, -0.000000000000000000 ) ) ;
#260 = DIRECTION ( 'NONE',  ( 0.000000000000000000, 0.000000000000000000, 1.000000000000000000 ) ) ;
#261 = DIRECTION ( 'NONE',  ( -1.000000000000000000, -0.000000000000000000, -0.000000000000000000 ) ) ;
#262 = PLANE ( 'NONE',  #9 ) ;
#263 = LINE ( 'NONE', #55, #323 ) ;
#264 = CARTESIAN_POINT ( 'NONE',  ( -2.999999999999999556, 0.000000000000000000, 0.000000000000000000 ) ) ;
#265 = PLANE ( 'NONE',  #70 ) ;
#266 = ORIENTED_EDGE ( 'NONE', *, *, #238, .T. ) ;
#267 = APPLICATION_PROTOCOL_DEFINITION ( 'international standard', 'config_control_design', 1994, #118 ) ;
#268 = ORIENTED_EDGE ( 'NONE', *, *, #72, .F. ) ;
#269 = PERSON_AND_ORGANIZATION ( #301, #158 ) ;
#270 = LOCAL_TIME ( 17, 14, 14.00000000000000000, #227 ) ;
#271 = EDGE_LOOP ( 'NONE', ( #139, #319, #225, #96 ) ) ;
#272 = PERSON_AND_ORGANIZATION ( #301, #158 ) ;
#273 = ORIENTED_EDGE ( 'NONE', *, *, #184, .F. ) ;
#274 = COORDINATED_UNIVERSAL_TIME_OFFSET ( 8, 0, .AHEAD. ) ;
#275 = PRODUCT_DEFINITION_SHAPE ( 'NONE', 'NONE',  #51 ) ;
#276 = EDGE_LOOP ( 'NONE', ( #115, #99 ) ) ;
#277 = LOCAL_TIME ( 17, 14, 14.00000000000000000, #178 ) ;
#278 = DIRECTION ( 'NONE',  ( -1.000000000000000000, -0.000000000000000000, -0.000000000000000000 ) ) ;
#279 = COORDINATED_UNIVERSAL_TIME_OFFSET ( 8, 0, .AHEAD. ) ;
#280 = CARTESIAN_POINT ( 'NONE',  ( -1.614212418857619014, 0.000000000000000000, 0.000000000000000000 ) ) ;
#281 = DIRECTION ( 'NONE',  ( -0.000000000000000000, 0.000000000000000000, 1.000000000000000000 ) ) ;
#282 = CIRCLE ( 'NONE', #95, 6.349999999999999645 ) ;
#283 = DIRECTION ( 'NONE',  ( -1.000000000000000000, 0.000000000000000000, -0.000000000000000000 ) ) ;
#284 = FACE_OUTER_BOUND ( 'NONE', #321, .T. ) ;
#285 = AXIS2_PLACEMENT_3D ( 'NONE', #236, #307, #330 ) ;
#286 = PLANE ( 'NONE',  #82 ) ;
#287 = CARTESIAN_POINT ( 'NONE',  ( -1.614212418857619014, 0.000000000000000000, 6.349999999999999645 ) ) ;
#288 = DIRECTION ( 'NONE',  ( 0.000000000000000000, 0.000000000000000000, 1.000000000000000000 ) ) ;
#289 = LINE ( 'NONE', #210, #32 ) ;
#290 = ADVANCED_FACE ( 'NONE', ( #154, #159 ), #262, .F. ) ;
#291 = DESIGN_CONTEXT ( 'detailed design', #316, 'design' ) ;
#292 = DATE_AND_TIME ( #140, #277 ) ;
#293 = ORIENTED_EDGE ( 'NONE', *, *, #233, .T. ) ;
#294 = AXIS2_PLACEMENT_3D ( 'NONE', #315, #53, #130 ) ;
#295 = VERTEX_POINT ( 'NONE', #214 ) ;
#296 = PRODUCT_RELATED_PRODUCT_CATEGORY ( 'detail', '', ( #145 ) ) ;
#297 = APPLICATION_PROTOCOL_DEFINITION ( 'international standard', 'config_control_design', 1994, #316 ) ;
#298 = ORIENTED_EDGE ( 'NONE', *, *, #114, .F. ) ;
#299 = PERSON_AND_ORGANIZATION ( #301, #158 ) ;
#300 = ADVANCED_FACE ( 'NONE', ( #284 ), #265, .F. ) ;
#301 = PERSON ( 'UNSPECIFIED', 'UNSPECIFIED', 'UNSPECIFIED', ('UNSPECIFIED'), ('UNSPECIFIED'), ('UNSPECIFIED') ) ;
#302 = ORIENTED_EDGE ( 'NONE', *, *, #18, .F. ) ;
#303 = FACE_BOUND ( 'NONE', #13, .T. ) ;
#304 = CARTESIAN_POINT ( 'NONE',  ( -1.500000000000000444, 7.776507174585692163E-16, -6.349999999999999645 ) ) ;
#305 = PLANE ( 'NONE',  #175 ) ;
#306 = AXIS2_PLACEMENT_3D ( 'NONE', #180, #278, #260 ) ;
#307 = DIRECTION ( 'NONE',  ( -1.000000000000000000, -0.000000000000000000, -0.000000000000000000 ) ) ;
#308 = VECTOR ( 'NONE', #78, 1000.000000000000000 ) ;
#309 = ADVANCED_FACE ( 'NONE', ( #245 ), #113, .F. ) ;
#310 = DIRECTION ( 'NONE',  ( -1.000000000000000000, -0.000000000000000000, -0.000000000000000000 ) ) ;
#311 = DIRECTION ( 'NONE',  ( -1.000000000000000000, 0.000000000000000000, -0.000000000000000000 ) ) ;
#312 = CARTESIAN_POINT ( 'NONE',  ( -1.614212418857619014, 7.776507174585692163E-16, -6.349999999999999645 ) ) ;
#313 = CC_DESIGN_PERSON_AND_ORGANIZATION_ASSIGNMENT ( #170, #44, ( #314 ) ) ;
#314 = PRODUCT_DEFINITION_FORMATION_WITH_SPECIFIED_SOURCE ( 'ANY', '', #145, .NOT_KNOWN. ) ;
#315 = CARTESIAN_POINT ( 'NONE',  ( 3.000000000000000888, 0.000000000000000000, 0.000000000000000000 ) ) ;
#316 = APPLICATION_CONTEXT ( 'configuration controlled 3d designs of mechanical parts and assemblies' ) ;
#317 = FACE_OUTER_BOUND ( 'NONE', #324, .T. ) ;
#318 = EDGE_CURVE ( 'NONE', #62, #218, #334, .T. ) ;
#319 = ORIENTED_EDGE ( 'NONE', *, *, #167, .T. ) ;
#320 = APPROVAL_DATE_TIME ( #229, #97 ) ;
#321 = EDGE_LOOP ( 'NONE', ( #69, #144 ) ) ;
#322 = VERTEX_POINT ( 'NONE', #215 ) ;
#323 = VECTOR ( 'NONE', #261, 1000.000000000000000 ) ;
#324 = EDGE_LOOP ( 'NONE', ( #302, #14, #247, #193 ) ) ;
#325 = CALENDAR_DATE ( 2020, 22, 12 ) ;
#326 = EDGE_LOOP ( 'NONE', ( #251, #89, #266, #38 ) ) ;
#327 = PERSON_AND_ORGANIZATION_ROLE ( 'creator' ) ;
#328 = CC_DESIGN_PERSON_AND_ORGANIZATION_ASSIGNMENT ( #299, #68, ( #51 ) ) ;
#329 = AXIS2_PLACEMENT_3D ( 'NONE', #19, #259, #147 ) ;
#330 = DIRECTION ( 'NONE',  ( 0.000000000000000000, 0.000000000000000000, 1.000000000000000000 ) ) ;
#331 = ADVANCED_FACE ( 'NONE', ( #317 ), #91, .T. ) ;
#332 = CIRCLE ( 'NONE', #80, 6.349999999999999645 ) ;
#333 = CARTESIAN_POINT ( 'NONE',  ( -2.999999999999999556, 7.776507174585692163E-16, -6.349999999999999645 ) ) ;
#334 = CIRCLE ( 'NONE', #138, 6.349999999999999645 ) ;
#335 = CARTESIAN_POINT ( 'NONE',  ( 1.500000000000000444, 6.349999999999999645, 0.000000000000000000 ) ) ;
ENDSEC;
END-ISO-10303-21;
